  0
SECTION
  2
HEADER
  9
$ACADVER
  1
AC1009
  9
$INSBASE
 10
0.0
 20
0.0
 30
0.0
  9
$EXTMIN
 10
19772.31659976003
 20
402046.8823106038
 30
0.0
  9
$EXTMAX
 10
64324.919244138749
 20
799643.3234279257
 30
0.0
  9
$LIMMIN
 10
-127022.6804658414
 20
-67144.462473645661
  9
$LIMMAX
 10
-873.19720690528334
 20
6755.1563308572058
  9
$ORTHOMODE
 70
     1
  9
$REGENMODE
 70
     1
  9
$FILLMODE
 70
     1
  9
$QTEXTMODE
 70
     0
  9
$MIRRTEXT
 70
     0
  9
$DRAGMODE
 70
     2
  9
$LTSCALE
 40
50.0
  9
$OSMODE
 70
   679
  9
$ATTMODE
 70
     1
  9
$TEXTSIZE
 40
200.0
  9
$TRACEWID
 40
10.0
  9
$TEXTSTYLE
  7
R
  9
$CLAYER
  8
0
  9
$CELTYPE
  6
CONTINUOUS
  9
$CECOLOR
 62
   256
  9
$DIMSCALE
 40
50.0
  9
$DIMASZ
 40
0.6
  9
$DIMEXO
 40
0.063
  9
$DIMDLI
 40
5.0
  9
$DIMRND
 40
0.0
  9
$DIMDLE
 40
0.0
  9
$DIMEXE
 40
0.2
  9
$DIMTP
 40
0.0
  9
$DIMTM
 40
0.0
  9
$DIMTXT
 40
0.4
  9
$DIMCEN
 40
15.09
  9
$DIMTSZ
 40
0.0
  9
$DIMTOL
 70
     0
  9
$DIMLIM
 70
     0
  9
$DIMTIH
 70
     0
  9
$DIMTOH
 70
     0
  9
$DIMSE1
 70
     0
  9
$DIMSE2
 70
     0
  9
$DIMTAD
 70
     1
  9
$DIMZIN
 70
    12
  9
$DIMBLK
  1

  9
$DIMASO
 70
     1
  9
$DIMSHO
 70
     0
  9
$DIMPOST
  1

  9
$DIMAPOST
  1

  9
$DIMALT
 70
     0
  9
$DIMALTD
 70
     2
  9
$DIMALTF
 40
25.399999999999999
  9
$DIMLFAC
 40
1.0
  9
$DIMTOFL
 70
     1
  9
$DIMTVP
 40
0.0
  9
$DIMTIX
 70
     0
  9
$DIMSOXD
 70
     0
  9
$DIMSAH
 70
     1
  9
$DIMBLK1
  1
OPEN
  9
$DIMBLK2
  1
OPEN
  9
$DIMSTYLE
  2
EMBABA
  9
$DIMCLRD
 70
     2
  9
$DIMCLRE
 70
     2
  9
$DIMCLRT
 70
     2
  9
$DIMTFAC
 40
1.0
  9
$DIMGAP
 40
0.5
  9
$LUNITS
 70
     2
  9
$LUPREC
 70
     0
  9
$SKETCHINC
 40
10.0
  9
$FILLETRAD
 40
400.0
  9
$AUNITS
 70
     0
  9
$AUPREC
 70
     4
  9
$MENU
  1
ACAD
  9
$ELEVATION
 40
0.0
  9
$PELEVATION
 40
0.0
  9
$THICKNESS
 40
0.0
  9
$LIMCHECK
 70
     0
  9
$BLIPMODE
 70
     0
  9
$CHAMFERA
 40
0.0
  9
$CHAMFERB
 40
0.0
  9
$SKPOLY
 70
     0
  9
$TDCREATE
 40
2450205.720229167
  9
$TDUPDATE
 40
2453523.5974772112
  9
$TDINDWG
 40
42.032440393500003
  9
$TDUSRTIMER
 40
42.032440393500003
  9
$USRTIMER
 70
     1
  9
$ANGBASE
 50
0.0
  9
$ANGDIR
 70
     0
  9
$PDMODE
 70
     2
  9
$PDSIZE
 40
-5.0
  9
$PLINEWID
 40
0.0
  9
$COORDS
 70
     0
  9
$SPLFRAME
 70
     0
  9
$SPLINETYPE
 70
     6
  9
$SPLINESEGS
 70
     8
  9
$ATTDIA
 70
     0
  9
$ATTREQ
 70
     1
  9
$HANDLING
 70
     1
  9
$HANDSEED
  5
5CEA4
  9
$SURFTAB1
 70
    18
  9
$SURFTAB2
 70
    18
  9
$SURFTYPE
 70
     6
  9
$SURFU
 70
    18
  9
$SURFV
 70
    18
  9
$UCSNAME
  2

  9
$UCSORG
 10
0.0
 20
0.0
 30
0.0
  9
$UCSXDIR
 10
1.0
 20
0.0
 30
0.0
  9
$UCSYDIR
 10
0.0
 20
1.0
 30
0.0
  9
$PUCSNAME
  2

  9
$PUCSORG
 10
0.0
 20
0.0
 30
0.0
  9
$PUCSXDIR
 10
1.0
 20
0.0
 30
0.0
  9
$PUCSYDIR
 10
0.0
 20
1.0
 30
0.0
  9
$USERI1
 70
     0
  9
$USERI2
 70
     0
  9
$USERI3
 70
     0
  9
$USERI4
 70
     0
  9
$USERI5
 70
     0
  9
$USERR1
 40
0.0
  9
$USERR2
 40
50.0
  9
$USERR3
 40
0.0
  9
$USERR4
 40
0.0
  9
$USERR5
 40
0.0
  9
$WORLDVIEW
 70
     1
  9
$SHADEDGE
 70
     3
  9
$SHADEDIF
 70
    70
  9
$TILEMODE
 70
     1
  9
$MAXACTVP
 70
    16
  9
$PLIMCHECK
 70
     0
  9
$PEXTMIN
 10
1.049999952316284
 20
0.7999999523162842
 30
0.0
  9
$PEXTMAX
 10
9.4499995708465558
 20
7.1999995708465558
 30
0.0
  9
$PLIMMIN
 10
-0.2500002402958907
 20
-0.2499999962453767
  9
$PLIMMAX
 10
10.74999951940821
 20
8.2499997634587316
  9
$UNITMODE
 70
     0
  9
$VISRETAIN
 70
     0
  9
$PLINEGEN
 70
     0
  9
$PSLTSCALE
 70
     1
  0
ENDSEC
  0
SECTION
  2
TABLES
  0
TABLE
  2
VPORT
 70
     4
  0
VPORT
  2
*ACTIVE
 70
     0
 10
0.0
 20
0.0
 11
1.0
 21
1.0
 12
62159.557182751072
 22
403499.89698820253
 13
0.0
 23
0.0
 14
1.0
 24
1.0
 15
1.0
 25
1.0
 16
0.0
 26
0.0
 36
1.0
 17
0.0
 27
0.0
 37
0.0
 40
5328.9108517894047
 41
1.6116303219106951
 42
50.0
 43
0.0
 44
0.0
 50
0.0
 51
0.0
 71
     0
 72
   100
 73
     1
 74
     0
 75
     0
 76
     1
 77
     0
 78
     0
  0
ENDTAB
  0
TABLE
  2
LTYPE
 70
     2
  0
LTYPE
  2
CONTINUOUS
 70
     0
  3
Solid line
 72
    65
 73
     0
 40
0.0
  0
LTYPE
  2
ČERCHOVANÁ
 70
     0
  3
Čerchovaná __ . __ . __ . __ . __ . __ . __ . _
 72
    65
 73
     4
 40
1.0
 49
0.5
 49
-0.25
 49
0.0
 49
-0.25
  0
ENDTAB
  0
TABLE
  2
LAYER
 70
     7
  0
LAYER
  2
0
 70
     0
 62
     7
  6
CONTINUOUS
  0
LAYER
  2
RAZ
 70
     0
 62
     7
  6
CONTINUOUS
  0
LAYER
  2
KOTY
 70
     0
 62
     2
  6
CONTINUOUS
  0
LAYER
  2
DEFPOINTS
 70
     0
 62
     7
  6
CONTINUOUS
  0
LAYER
  2
2-VZT
 70
     0
 62
     4
  6
CONTINUOUS
  0
LAYER
  2
SILNA
 70
     0
 62
     7
  6
CONTINUOUS
  0
LAYER
  2
OBRYS
 70
     0
 62
     7
  6
CONTINUOUS
  0
ENDTAB
  0
TABLE
  2
STYLE
 70
     6
  0
STYLE
  2
STANDARD
 70
     0
 40
0.0
 41
0.8
 50
0.0
 71
     0
 42
200.0
  3
ROMANS.SHX
  4

  0
STYLE
  2
R
 70
     0
 40
0.0
 41
0.8
 50
0.0
 71
     0
 42
200.0
  3
ROMANS.SHX
  4

  0
STYLE
  2
ROMANS
 70
     0
 40
0.0
 41
0.8
 50
0.0
 71
     0
 42
300.0
  3
ROMANS.shx
  4

  0
STYLE
  2
R08
 70
     0
 40
0.0
 41
0.8
 50
0.0
 71
     0
 42
800.0
  3
ROMANS.shx
  4

  0
STYLE
  2
ROMANT
 70
     0
 40
0.0
 41
0.7
 50
0.0
 71
     0
 42
3.0
  3
romant
  4

  0
STYLE
  2
CYRILLIC
 70
     0
 40
2.2999999999999989
 41
0.7
 50
0.0
 71
     0
 42
2.2999999999999989
  3
cyrillic
  4

  0
ENDTAB
  0
TABLE
  2
VIEW
 70
     0
  0
ENDTAB
  0
TABLE
  2
UCS
 70
     0
  0
ENDTAB
  0
TABLE
  2
APPID
 70
     6
  0
APPID
  2
ACAD
 70
     0
  0
APPID
  2
PHOENIX7010
 70
     0
  0
APPID
  2
CONTENTBLOCKICON
 70
     0
  0
APPID
  2
CONTENTLONGBLOCKNAME
 70
     0
  0
APPID
  2
ACAD_DSTYLE_DIMTEXT_FILL
 70
     0
  0
APPID
  2
DCO15
 70
     0
  0
ENDTAB
  0
TABLE
  2
DIMSTYLE
 70
     2
  0
DIMSTYLE
  2
STANDARD
 70
     0
  3

  4

  5

  6
OPEN
  7
OPEN
 40
1.0
 41
80.0
 42
1.0
 43
0.0
 44
1.0
 45
0.0
 46
0.8
 47
0.0
 48
0.0
140
70.0
141
-3.0
142
0.0
143
0.0394
144
1.0
145
1.0
146
0.5
147
1.0
 71
     0
 72
     0
 73
     0
 74
     0
 75
     0
 76
     0
 77
     0
 78
     8
170
     0
171
     2
172
     1
173
     1
174
     0
175
     0
176
     7
177
     7
178
     2
  0
DIMSTYLE
  2
EMBABA
 70
     0
  3

  4

  5

  6
OPEN
  7
OPEN
 40
50.0
 41
0.6
 42
0.063
 43
5.0
 44
0.2
 45
0.0
 46
0.0
 47
0.0
 48
0.0
140
0.4
141
15.09
142
0.0
143
25.399999999999999
144
1.0
145
0.0
146
1.0
147
0.5
 71
     0
 72
     0
 73
     0
 74
     0
 75
     0
 76
     0
 77
     1
 78
    12
170
     0
171
     2
172
     1
173
     1
174
     0
175
     0
176
     2
177
     2
178
     2
  0
ENDTAB
  0
ENDSEC
  0
SECTION
  2
BLOCKS
  0
BLOCK
  8
0
  2
$MODEL_SPACE
 70
     0
 10
0.0
 20
0.0
 30
0.0
  3
$MODEL_SPACE
  1

  0
ENDBLK
  5
9
  8
0
  0
BLOCK
 67
     1
  8
0
  2
$PAPER_SPACE
 70
     0
 10
0.0
 20
0.0
 30
0.0
  3
$PAPER_SPACE
  1

  0
ENDBLK
  5
E
 67
     1
  8
0
  0
BLOCK
  8
0
  2
_OPEN
 70
     0
 10
0.0
 20
0.0
 30
0.0
  3
_OPEN
  1

  0
LINE
  5
28
  8
0
  6
BYBLOCK
 62
     0
 10
-1.0
 20
0.1666666666666666
 30
0.0
 11
0.0
 21
0.0
 31
0.0
  0
LINE
  5
29
  8
0
  6
BYBLOCK
 62
     0
 10
0.0
 20
0.0
 30
0.0
 11
-1.0
 21
-0.1666666666666666
 31
0.0
  0
LINE
  5
2A
  8
0
  6
BYBLOCK
 62
     0
 10
0.0
 20
0.0
 30
0.0
 11
-1.0
 21
0.0
 31
0.0
  0
ENDBLK
  5
2C
  8
0
  0
BLOCK
  8
0
  2
A$C5B1234F8
 70
     0
 10
0.0
 20
0.0
 30
0.0
  3
A$C5B1234F8
  1

  0
POLYLINE
  5
5A113
  8
SILNA
  6
CONTINUOUS
 66
     1
 10
0.0
 20
0.0
 30
0.0
  0
VERTEX
  5
5CE73
  8
SILNA
  6
CONTINUOUS
 10
899.99999542257865
 20
900.0
 30
0.0
  0
VERTEX
  5
5CE74
  8
SILNA
  6
CONTINUOUS
 10
527.20778928679283
 20
900.0
 30
0.0
  0
VERTEX
  5
5CE75
  8
SILNA
  6
CONTINUOUS
 10
-0.0000045774213504
 20
372.79220613581128
 30
0.0
  0
VERTEX
  5
5CE76
  8
SILNA
  6
CONTINUOUS
 10
-0.0000045774213504
 20
0.0
 30
0.0
  0
SEQEND
  5
5CE77
  8
SILNA
  6
CONTINUOUS
  0
LINE
  5
5A114
  8
SILNA
  6
CONTINUOUS
 10
-0.0000045774213504
 20
0.0
 30
0.0
 11
159.99999542257859
 21
0.0
 31
0.0
  0
ARC
  5
5A115
  8
SILNA
  6
CONTINUOUS
 10
899.99999542257865
 20
0.0
 30
0.0
 40
740.0
 50
90.0
 51
180.0
  0
LINE
  5
5A116
  8
SILNA
  6
CONTINUOUS
 10
899.99999542257865
 20
900.0
 30
0.0
 11
899.99999542257865
 21
740.0
 31
0.0
  0
ENDBLK
  5
5A11A
  8
0
  0
BLOCK
  8
0
  2
*U2
 70
     1
 10
0.0
 20
0.0
 30
0.0
  3
*U2
  1

  0
TEXT
  5
5CE79
  8
0
  6
CONTINUOUS
 10
60215.368067813273
 20
403642.02483121952
 30
0.0
 40
20.0
  1
720
 50
90.0
 41
0.8
  0
ENDBLK
  5
5CE7B
  8
0
  0
BLOCK
  8
0
  2
*U3
 70
     1
 10
0.0
 20
0.0
 30
0.0
  3
*U3
  1

  0
TEXT
  5
5CE7D
  8
OBRYS
  6
CONTINUOUS
 10
60548.082353527629
 20
404149.88197407662
 30
0.0
 40
20.0
  1
\U+2205100
 41
0.8
  0
ENDBLK
  5
5CE7F
  8
0
  0
BLOCK
  8
0
  2
*U4
 70
     1
 10
0.0
 20
0.0
 30
0.0
  3
*U4
  1

  0
TEXT
  5
5CE81
  8
OBRYS
  6
CONTINUOUS
 10
61092.957677741731
 20
404149.88197407662
 30
0.0
 40
20.0
  1
\U+2205100
 41
0.8
  0
ENDBLK
  5
5CE83
  8
0
  0
BLOCK
  8
0
  2
*U5
 70
     1
 10
0.0
 20
0.0
 30
0.0
  3
*U5
  1

  0
TEXT
  5
5CE85
  8
OBRYS
  6
CONTINUOUS
 10
60936.243392027449
 20
404249.88197407662
 30
0.0
 40
20.0
  1
150
 41
0.8
  0
ENDBLK
  5
5CE87
  8
0
  0
BLOCK
  8
0
  2
*U6
 70
     1
 10
0.0
 20
0.0
 30
0.0
  3
*U6
  1

  0
TEXT
  5
5CE89
  8
OBRYS
  6
CONTINUOUS
 10
61110.243392027383
 20
403642.02483121952
 30
0.0
 40
20.0
  1
720
 50
90.0
 41
0.8
  0
ENDBLK
  5
5CE8B
  8
0
  0
BLOCK
  8
0
  2
*U7
 70
     1
 10
0.0
 20
0.0
 30
0.0
  3
*U7
  1

  0
TEXT
  5
5CE8D
  8
0
  6
CONTINUOUS
 10
60548.082353527621
 20
403229.8819740765
 30
0.0
 40
20.0
  1
\U+2205100
 41
0.8
  0
ENDBLK
  5
5CE8F
  8
0
  0
BLOCK
  8
0
  2
*U8
 70
     1
 10
0.0
 20
0.0
 30
0.0
  3
*U8
  1

  0
TEXT
  5
5CE91
  8
OBRYS
  6
CONTINUOUS
 10
60391.368067813339
 20
404249.88197407662
 30
0.0
 40
20.0
  1
150
 41
0.8
  0
ENDBLK
  5
5CE93
  8
0
  0
BLOCK
  8
0
  2
*U9
 70
     1
 10
0.0
 20
0.0
 30
0.0
  3
*U9
  1

  0
TEXT
  5
5CE95
  8
0
  6
CONTINUOUS
 10
60936.243392027449
 20
403129.88197407662
 30
0.0
 40
20.0
  1
150
 41
0.8
  0
ENDBLK
  5
5CE97
  8
0
  0
BLOCK
  8
0
  2
*U10
 70
     1
 10
0.0
 20
0.0
 30
0.0
  3
*U10
  1

  0
TEXT
  5
5CE99
  8
0
  6
CONTINUOUS
 10
61092.957677741731
 20
403229.8819740765
 30
0.0
 40
20.0
  1
\U+2205100
 41
0.8
  0
ENDBLK
  5
5CE9B
  8
0
  0
BLOCK
  8
0
  2
*U11
 70
     1
 10
0.0
 20
0.0
 30
0.0
  3
*U11
  1

  0
TEXT
  5
5CE9D
  8
0
  6
CONTINUOUS
 10
60391.368067813339
 20
403129.88197407662
 30
0.0
 40
20.0
  1
150
 41
0.8
  0
ENDBLK
  5
5CE9F
  8
0
  0
BLOCK
  8
0
  2
*U12
 70
     1
 10
0.0
 20
0.0
 30
0.0
  3
*U12
  1

  0
TEXT
  5
5CEA1
  8
OBRYS
  6
CONTINUOUS
 10
60145.255016250347
 20
404721.01878167572
 30
0.0
 40
100.0
  1
Aqua-Net-měřící úsek
 41
0.8
  7
R
  0
ENDBLK
  5
5CEA3
  8
0
  0
ENDSEC
  0
SECTION
  2
ENTITIES
  0
TEXT
  5
2F7A5
  8
KOTY
 10
-393803.77638965531
 20
-299016.15321175661
 30
0.0
 40
150.0
  1

 41
0.7
  7
ROMANT
  0
TEXT
  5
3AD8B
  8
KOTY
 10
-14797.18019204357
 20
454294.55370899959
 30
0.0
 40
150.0
  1

 41
0.7
  7
ROMANT
  0
TEXT
  5
404AD
  8
KOTY
 10
44010.2314385153
 20
465617.23741859582
 30
0.0
 40
92.0
  1

 41
0.7
  7
CYRILLIC
  0
TEXT
  5
404B4
  8
KOTY
 10
39575.071591094718
 20
465613.29777162091
 30
0.0
 40
92.0
  1

 41
0.7
  7
CYRILLIC
  0
TEXT
  5
40B14
  8
KOTY
 10
5856.0590664841584
 20
486921.1132385282
 30
0.0
 40
150.0
  1

 41
0.7
  7
ROMANT
  0
TEXT
  5
40BFC
  8
KOTY
 10
8767.7265956277752
 20
466337.2608060218
 30
0.0
 40
150.0
  1

 41
0.7
  7
ROMANS
  0
TEXT
  5
51A7C
  8
KOTY
 10
-47677.341387967608
 20
395133.71812193602
 30
0.0
 40
150.0
  1

 41
0.7
  7
ROMANS
  0
TEXT
  5
51A94
  8
KOTY
 10
-45176.819295693742
 20
395133.7181219359
 30
0.0
 40
150.0
  1

 41
0.7
  7
ROMANS
  0
TEXT
  5
51A9B
  8
KOTY
 10
-48084.423320344351
 20
397411.27855615731
 30
0.0
 40
150.0
  1

 41
0.7
  7
ROMANT
  0
TEXT
  5
51B05
  8
RAZ
 62
     6
 10
-47365.887544580757
 20
392999.37567832542
 30
0.0
 40
193.54103193599991
  1

 41
0.8
  7
R08
  0
TEXT
  5
51B06
  8
RAZ
 62
     1
 10
-47245.037660778231
 20
393401.77274166199
 30
0.0
 40
125.41458869452801
  1

  7
ROMANS
  0
TEXT
  5
58307
  8
KOTY
 10
22966.528519463162
 20
383405.87475258159
 30
0.0
 40
150.0
  1

 41
0.7
  7
ROMANS
  0
TEXT
  5
58308
  8
KOTY
 10
22966.528519463169
 20
383855.87475258159
 30
0.0
 40
150.0
  1

 41
0.7
  7
ROMANS
  0
TEXT
  5
58315
  8
KOTY
 10
25467.050611737021
 20
383855.87475258141
 30
0.0
 40
150.0
  1

 41
0.7
  7
ROMANS
  0
TEXT
  5
58316
  8
KOTY
 10
25467.050611737021
 20
383405.87475258141
 30
0.0
 40
150.0
  1

 41
0.7
  7
ROMANS
  0
TEXT
  5
5833F
  8
KOTY
 10
22966.528519463162
 20
385205.87475258153
 30
0.0
 40
150.0
  1

 41
0.7
  7
ROMANS
  0
TEXT
  5
58340
  8
KOTY
 10
22966.528519463169
 20
385655.87475258159
 30
0.0
 40
150.0
  1

 41
0.7
  7
ROMANS
  0
TEXT
  5
58354
  8
KOTY
 10
25467.050611737021
 20
385655.87475258141
 30
0.0
 40
150.0
  1

 41
0.7
  7
ROMANS
  0
TEXT
  5
58355
  8
KOTY
 10
25467.050611737021
 20
385205.87475258141
 30
0.0
 40
150.0
  1

 41
0.7
  7
ROMANS
  0
TEXT
  5
58397
  8
KOTY
 10
25467.050611737039
 20
390605.87475258129
 30
0.0
 40
150.0
  1

 41
0.7
  7
ROMANS
  0
TEXT
  5
58398
  8
KOTY
 10
25467.050611737039
 20
391055.87475258141
 30
0.0
 40
150.0
  1

 41
0.7
  7
ROMANS
  0
TEXT
  5
583C1
  8
KOTY
 10
25467.050611737031
 20
389255.87475258141
 30
0.0
 40
150.0
  1

 41
0.7
  7
ROMANS
  0
TEXT
  5
58C84
  8
KOTY
 10
22966.52851946322
 20
387905.87475258153
 30
0.0
 40
150.0
  1

 41
0.7
  7
ROMANS
  0
INSERT
  5
5A11D
  8
SILNA
  6
CONTINUOUS
  2
A$C5B1234F8
 10
21045.108802659091
 20
799530.18634617259
 30
0.0
 50
134.99999999999989
  0
LINE
  5
5CCB0
  8
OBRYS
  6
CONTINUOUS
 10
60885.243392027449
 20
404024.88197407662
 30
0.0
 11
61035.243392027449
 21
404024.88197407662
 31
0.0
  0
LINE
  5
5CCB1
  8
OBRYS
  6
CONTINUOUS
 10
60885.243392027449
 20
404024.88197407662
 30
0.0
 11
60885.243392027449
 21
403949.88197407662
 31
0.0
  0
LINE
  5
5CCB2
  8
OBRYS
  6
CONTINUOUS
 10
60885.243392027449
 20
403949.88197407662
 30
0.0
 11
60885.243392027449
 21
403799.88197407662
 31
0.0
  0
LINE
  5
5CCB3
  8
OBRYS
  6
CONTINUOUS
 10
60885.243392027449
 20
403799.88197407662
 30
0.0
 11
60885.243392027449
 21
403484.88197407662
 31
0.0
  0
LINE
  5
5CCB4
  8
0
  6
CONTINUOUS
 10
60885.243392027449
 20
403484.88197407662
 30
0.0
 11
60885.243392027449
 21
403304.8819740765
 31
0.0
  0
LINE
  5
5CCB5
  8
0
  6
CONTINUOUS
 10
60885.243392027449
 20
403304.8819740765
 30
0.0
 11
61035.243392027449
 21
403304.8819740765
 31
0.0
  0
LINE
  5
5CCB6
  8
0
  6
CONTINUOUS
 10
61035.243392027449
 20
403304.8819740765
 30
0.0
 11
61035.243392027449
 21
404024.88197407662
 31
0.0
  0
LINE
  5
5CCB7
  8
OBRYS
  6
CONTINUOUS
 10
60885.243392027449
 20
404024.88197407662
 30
0.0
 11
60910.243392027442
 21
404024.88197407662
 31
0.0
  0
LINE
  5
5CCB8
  8
OBRYS
  6
CONTINUOUS
 10
60910.243392027442
 20
404024.88197407662
 30
0.0
 11
60910.243392027442
 21
404074.88197407662
 31
0.0
  0
LINE
  5
5CCB9
  8
OBRYS
  6
CONTINUOUS
 10
60910.243392027442
 20
404074.88197407662
 30
0.0
 11
61010.243392027442
 21
404074.88197407662
 31
0.0
  0
LINE
  5
5CCBA
  8
OBRYS
  6
CONTINUOUS
 10
61010.243392027442
 20
404074.88197407662
 30
0.0
 11
61010.243392027442
 21
404024.88197407662
 31
0.0
  0
LINE
  5
5CCBB
  8
OBRYS
  6
CONTINUOUS
 10
60885.243392027449
 20
404024.88197407662
 30
0.0
 11
60885.243392027449
 21
403949.88197407662
 31
0.0
  0
LINE
  5
5CCBC
  8
OBRYS
  6
CONTINUOUS
 10
60885.243392027449
 20
403949.88197407662
 30
0.0
 11
61035.243392027449
 21
403949.88197407662
 31
0.0
  0
LINE
  5
5CCBD
  8
OBRYS
  6
CONTINUOUS
 10
60942.879711348789
 20
403949.88197407662
 30
0.0
 11
60942.879711348789
 21
403959.86598818522
 31
0.0
  0
LINE
  5
5CCBE
  8
OBRYS
  6
CONTINUOUS
 10
60942.879711348789
 20
403959.86598818522
 30
0.0
 11
60988.109422293492
 21
403959.86598818522
 31
0.0
  0
LINE
  5
5CCBF
  8
OBRYS
  6
CONTINUOUS
 10
60988.109422293492
 20
403959.86598818522
 30
0.0
 11
60988.109422293492
 21
403949.88197407662
 31
0.0
  0
LINE
  5
5CCC0
  8
OBRYS
  6
CONTINUOUS
 10
60885.243392027449
 20
403867.7672179605
 30
0.0
 11
60923.336196198587
 21
403799.88197407662
 31
0.0
  0
LINE
  5
5CCC1
  8
OBRYS
  6
CONTINUOUS
 10
61035.243392027449
 20
403867.7672179605
 30
0.0
 11
60997.150587856297
 21
403799.88197407662
 31
0.0
  0
LINE
  5
5CCC2
  8
OBRYS
  6
CONTINUOUS
 10
60885.243392027449
 20
403824.88197407662
 30
0.0
 11
61035.243392027449
 21
403824.88197407662
 31
0.0
  0
LINE
  5
5CCC3
  8
OBRYS
  6
CONTINUOUS
 10
60885.243392027449
 20
403554.88197407668
 30
0.0
 11
61035.243392027449
 21
403554.88197407668
 31
0.0
  0
LINE
  5
5CCC4
  8
OBRYS
  6
CONTINUOUS
 10
60932.140250445111
 20
403771.87296464317
 30
0.0
 11
60988.286746161059
 21
403771.87296464317
 31
0.0
  0
LINE
  5
5CCC5
  8
OBRYS
  6
CONTINUOUS
 10
60988.286746161059
 20
403771.87296464317
 30
0.0
 11
60988.286746161059
 21
403670.84785013931
 31
0.0
  0
LINE
  5
5CCC6
  8
OBRYS
  6
CONTINUOUS
 10
60988.286746161059
 20
403670.84785013931
 30
0.0
 11
60932.140250445111
 21
403670.84785013931
 31
0.0
  0
LINE
  5
5CCC7
  8
OBRYS
  6
CONTINUOUS
 10
60932.140250445111
 20
403670.84785013931
 30
0.0
 11
60932.140250445111
 21
403771.87296464317
 31
0.0
  0
LINE
  5
5CCC8
  8
OBRYS
  6
CONTINUOUS
 10
60885.243392027449
 20
403484.88197407662
 30
0.0
 11
61035.243392027449
 21
403484.88197407662
 31
0.0
  0
LINE
  5
5CCC9
  8
0
  6
CONTINUOUS
 10
60885.243392027449
 20
403428.21059071162
 30
0.0
 11
61035.243392027449
 21
403428.21059071162
 31
0.0
  0
LINE
  5
5CCCA
  8
OBRYS
  6
CONTINUOUS
 10
60939.868236776907
 20
403479.88197407668
 30
0.0
 11
60987.555814402178
 21
403479.88197407668
 31
0.0
  0
LINE
  5
5CCCB
  8
OBRYS
  6
CONTINUOUS
 10
61035.243392027449
 20
403554.88197407668
 30
0.0
 11
60998.854945551597
 21
403484.88197407662
 31
0.0
  0
LINE
  5
5CCCC
  8
OBRYS
  6
CONTINUOUS
 10
60885.243392027449
 20
403554.88197407668
 30
0.0
 11
60921.631838503286
 21
403484.88197407662
 31
0.0
  0
LINE
  5
5CCCD
  8
OBRYS
  6
CONTINUOUS
 10
60987.983628438553
 20
403484.88197407662
 30
0.0
 11
60987.983628438553
 21
403529.02035198768
 31
0.0
  0
LINE
  5
5CCCE
  8
OBRYS
  6
CONTINUOUS
 10
60987.983628438553
 20
403529.02035198768
 30
0.0
 11
60885.243392027449
 21
403529.02035198768
 31
0.0
  0
LINE
  5
5CCCF
  8
OBRYS
  6
CONTINUOUS
 10
60967.315546538208
 20
403529.02035198768
 30
0.0
 11
60967.315546538208
 21
403653.0017444308
 31
0.0
  0
LINE
  5
5CCD0
  8
OBRYS
  6
CONTINUOUS
 10
60967.315546538208
 20
403653.0017444308
 30
0.0
 11
60957.988614220631
 21
403653.0017444308
 31
0.0
  0
LINE
  5
5CCD1
  8
OBRYS
  6
CONTINUOUS
 10
60957.988614220631
 20
403653.0017444308
 30
0.0
 11
60957.988614220572
 21
403529.02035198768
 31
0.0
  0
LINE
  5
5CCD2
  8
OBRYS
  6
CONTINUOUS
 10
60950.918393346241
 20
403643.31461080047
 30
0.0
 11
60973.258169485489
 21
403643.31461080047
 31
0.0
  0
LINE
  5
5CCD3
  8
OBRYS
  6
CONTINUOUS
 10
60973.258169485489
 20
403643.31461080047
 30
0.0
 11
60973.258169485489
 21
403638.95676425699
 31
0.0
  0
LINE
  5
5CCD4
  8
OBRYS
  6
CONTINUOUS
 10
60973.258169485489
 20
403638.95676425699
 30
0.0
 11
60950.918393346241
 21
403638.95676425699
 31
0.0
  0
LINE
  5
5CCD5
  8
OBRYS
  6
CONTINUOUS
 10
60950.918393346241
 20
403638.95676425699
 30
0.0
 11
60950.918393346241
 21
403643.31461080047
 31
0.0
  0
LINE
  5
5CCD6
  8
0
  6
CONTINUOUS
 10
60885.243392027449
 20
403304.8819740765
 30
0.0
 11
60935.243392027449
 21
403304.8819740765
 31
0.0
  0
LINE
  5
5CCD7
  8
0
  6
CONTINUOUS
 10
60885.243392027449
 20
403304.8819740765
 30
0.0
 11
60910.243392027442
 21
403304.8819740765
 31
0.0
  0
LINE
  5
5CCD8
  8
0
  6
CONTINUOUS
 10
60910.243392027442
 20
403304.8819740765
 30
0.0
 11
60910.243392027442
 21
403254.88197407668
 31
0.0
  0
LINE
  5
5CCD9
  8
0
  6
CONTINUOUS
 10
60910.243392027442
 20
403254.88197407668
 30
0.0
 11
61010.243392027442
 21
403254.88197407668
 31
0.0
  0
LINE
  5
5CCDA
  8
0
  6
CONTINUOUS
 10
61010.243392027442
 20
403254.88197407668
 30
0.0
 11
61010.243392027442
 21
403304.8819740765
 31
0.0
  0
LINE
  5
5CCDB
  8
OBRYS
  6
CONTINUOUS
 10
60340.368067813339
 20
404024.88197407662
 30
0.0
 11
60490.368067813339
 21
404024.88197407662
 31
0.0
  0
LINE
  5
5CCDC
  8
OBRYS
  6
CONTINUOUS
 10
60340.368067813339
 20
404024.88197407662
 30
0.0
 11
60340.368067813339
 21
403949.88197407662
 31
0.0
  0
LINE
  5
5CCDD
  8
OBRYS
  6
CONTINUOUS
 10
60340.368067813339
 20
403949.88197407662
 30
0.0
 11
60340.368067813339
 21
403799.88197407662
 31
0.0
  0
LINE
  5
5CCDE
  8
OBRYS
  6
CONTINUOUS
 10
60340.368067813339
 20
403799.88197407662
 30
0.0
 11
60340.368067813339
 21
403484.88197407662
 31
0.0
  0
LINE
  5
5CCDF
  8
0
  6
CONTINUOUS
 10
60340.368067813339
 20
403484.88197407662
 30
0.0
 11
60340.368067813339
 21
403304.8819740765
 31
0.0
  0
LINE
  5
5CCE0
  8
0
  6
CONTINUOUS
 10
60340.368067813339
 20
403304.8819740765
 30
0.0
 11
60490.368067813339
 21
403304.8819740765
 31
0.0
  0
LINE
  5
5CCE1
  8
OBRYS
  6
CONTINUOUS
 10
60490.368067813339
 20
403949.88197407662
 30
0.0
 11
60490.368067813339
 21
404024.88197407662
 31
0.0
  0
LINE
  5
5CCE2
  8
OBRYS
  6
CONTINUOUS
 10
60340.368067813339
 20
404024.88197407662
 30
0.0
 11
60365.368067813339
 21
404024.88197407662
 31
0.0
  0
LINE
  5
5CCE3
  8
OBRYS
  6
CONTINUOUS
 10
60365.368067813339
 20
404024.88197407662
 30
0.0
 11
60365.368067813339
 21
404074.88197407662
 31
0.0
  0
LINE
  5
5CCE4
  8
OBRYS
  6
CONTINUOUS
 10
60365.368067813339
 20
404074.88197407662
 30
0.0
 11
60465.368067813331
 21
404074.88197407662
 31
0.0
  0
LINE
  5
5CCE5
  8
OBRYS
  6
CONTINUOUS
 10
60465.368067813331
 20
404074.88197407662
 30
0.0
 11
60465.368067813331
 21
404024.88197407662
 31
0.0
  0
LINE
  5
5CCE6
  8
OBRYS
  6
CONTINUOUS
 10
60340.368067813339
 20
404024.88197407662
 30
0.0
 11
60340.368067813339
 21
403949.88197407662
 31
0.0
  0
LINE
  5
5CCE7
  8
0
  6
CONTINUOUS
 10
60340.368067813339
 20
403304.8819740765
 30
0.0
 11
60390.368067813339
 21
403304.8819740765
 31
0.0
  0
LINE
  5
5CCE8
  8
0
  6
CONTINUOUS
 10
60340.368067813339
 20
403304.8819740765
 30
0.0
 11
60365.368067813339
 21
403304.8819740765
 31
0.0
  0
LINE
  5
5CCE9
  8
0
  6
CONTINUOUS
 10
60365.368067813339
 20
403304.8819740765
 30
0.0
 11
60365.368067813339
 21
403254.88197407668
 31
0.0
  0
LINE
  5
5CCEA
  8
0
  6
CONTINUOUS
 10
60365.368067813339
 20
403254.88197407668
 30
0.0
 11
60465.368067813331
 21
403254.88197407668
 31
0.0
  0
LINE
  5
5CCEB
  8
0
  6
CONTINUOUS
 10
60465.368067813331
 20
403254.88197407668
 30
0.0
 11
60465.368067813331
 21
403304.8819740765
 31
0.0
  0
LINE
  5
5CCEC
  8
OBRYS
  6
CONTINUOUS
 10
60365.368067813339
 20
404024.88197407662
 30
0.0
 11
60389.839911282528
 21
404001.31537192391
 31
0.0
  0
LINE
  5
5CCED
  8
OBRYS
  6
CONTINUOUS
 10
60490.368067813339
 20
403949.88197407662
 30
0.0
 11
60565.368067813339
 21
403949.88197407662
 31
0.0
  0
LINE
  5
5CCEE
  8
OBRYS
  6
CONTINUOUS
 10
60430.49061098275
 20
403867.7672179605
 30
0.0
 11
60468.583415153902
 21
403799.88197407662
 31
0.0
  0
LINE
  5
5CCEF
  8
OBRYS
  6
CONTINUOUS
 10
60565.368067813339
 20
403867.7672179605
 30
0.0
 11
60542.397806811612
 21
403799.88197407662
 31
0.0
  0
LINE
  5
5CCF0
  8
OBRYS
  6
CONTINUOUS
 10
60565.368067813339
 20
403949.88197407662
 30
0.0
 11
60565.368067813339
 21
403867.7672179605
 31
0.0
  0
LINE
  5
5CCF1
  8
OBRYS
  6
CONTINUOUS
 10
60468.583415153902
 20
403799.88197407662
 30
0.0
 11
60542.397806811612
 21
403799.88197407662
 31
0.0
  0
LINE
  5
5CCF2
  8
OBRYS
  6
CONTINUOUS
 10
60527.275263642186
 20
403949.88197407662
 30
0.0
 11
60535.818375202361
 21
403949.88197407662
 31
0.0
  0
LINE
  5
5CCF3
  8
OBRYS
  6
CONTINUOUS
 10
60535.818375202361
 20
403949.88197407662
 30
0.0
 11
60535.818375202361
 21
403534.66279464198
 31
0.0
  0
LINE
  5
5CCF4
  8
OBRYS
  6
CONTINUOUS
 10
60535.818375202361
 20
403534.66279464198
 30
0.0
 11
60527.275263642186
 21
403534.66279464198
 31
0.0
  0
LINE
  5
5CCF5
  8
OBRYS
  6
CONTINUOUS
 10
60527.275263642186
 20
403534.66279464198
 30
0.0
 11
60527.275263642186
 21
403949.88197407662
 31
0.0
  0
CIRCLE
  5
5CCF6
  8
OBRYS
  6
CONTINUOUS
 10
60507.564772299491
 20
403883.64505158958
 30
0.0
 40
10.0
  0
LINE
  5
5CCF7
  8
OBRYS
  6
CONTINUOUS
 10
60430.49061098275
 20
403867.7672179605
 30
0.0
 11
60387.639276618138
 21
403906.57875975798
 31
0.0
  0
LINE
  5
5CCF8
  8
OBRYS
  6
CONTINUOUS
 10
60387.639276618138
 20
403906.57875975798
 30
0.0
 11
60387.639276618138
 21
403949.88197407662
 31
0.0
  0
LINE
  5
5CCF9
  8
OBRYS
  6
CONTINUOUS
 10
60430.49061098275
 20
403484.88197407662
 30
0.0
 11
60610.368067813331
 21
403484.88197407662
 31
0.0
  0
LINE
  5
5CCFA
  8
0
  6
CONTINUOUS
 10
60610.368067813331
 20
403484.88197407662
 30
0.0
 11
60490.368067813339
 21
403304.8819740765
 31
0.0
  0
LINE
  5
5CCFB
  8
OBRYS
  6
CONTINUOUS
 10
60430.49061098275
 20
403867.7672179605
 30
0.0
 11
60430.49061098275
 21
403484.88197407662
 31
0.0
  0
LINE
  5
5CCFC
  8
OBRYS
  6
CONTINUOUS
 10
60447.080661976252
 20
403813.80289641448
 30
0.0
 11
60564.920707727782
 21
403813.80289641448
 31
0.0
  0
LINE
  5
5CCFD
  8
OBRYS
  6
CONTINUOUS
 10
60447.080661976252
 20
403543.80289641448
 30
0.0
 11
60564.920707727782
 21
403543.80289641448
 31
0.0
  0
LINE
  5
5CCFE
  8
OBRYS
  6
CONTINUOUS
 10
60447.080661976252
 20
403543.80289641448
 30
0.0
 11
60447.080661976252
 21
403813.80289641448
 31
0.0
  0
LINE
  5
5CCFF
  8
OBRYS
  6
CONTINUOUS
 10
60564.920707727782
 20
403813.80289641448
 30
0.0
 11
60564.920707727782
 21
403543.80289641448
 31
0.0
  0
LINE
  5
5CD00
  8
OBRYS
  6
CONTINUOUS
 10
60482.063478315948
 20
403479.88197407668
 30
0.0
 11
60529.751055941211
 21
403479.88197407668
 31
0.0
  0
LINE
  5
5CD01
  8
OBRYS
  6
CONTINUOUS
 10
60447.080661976252
 20
403543.80289641448
 30
0.0
 11
60482.063478315948
 21
403479.88197407668
 31
0.0
  0
LINE
  5
5CD02
  8
OBRYS
  6
CONTINUOUS
 10
60529.751055941211
 20
403479.88197407668
 30
0.0
 11
60564.920707727782
 21
403543.80289641448
 31
0.0
  0
LINE
  5
5CD03
  8
OBRYS
  6
CONTINUOUS
 10
60564.920707727782
 20
403484.88197407662
 30
0.0
 11
60607.731539247783
 21
403484.88197407662
 31
0.0
  0
LINE
  5
5CD04
  8
OBRYS
  6
CONTINUOUS
 10
60607.731539247783
 20
403484.88197407662
 30
0.0
 11
60607.731539247783
 21
403521.73595852091
 31
0.0
  0
LINE
  5
5CD05
  8
OBRYS
  6
CONTINUOUS
 10
60607.731539247783
 20
403521.73595852091
 30
0.0
 11
60564.920707727782
 21
403521.73595852091
 31
0.0
  0
LINE
  5
5CD06
  8
OBRYS
  6
CONTINUOUS
 10
60564.920707727782
 20
403521.73595852091
 30
0.0
 11
60564.920707727782
 21
403484.88197407662
 31
0.0
  0
LINE
  5
5CD07
  8
OBRYS
  6
CONTINUOUS
 10
60586.326123487786
 20
403521.73595852091
 30
0.0
 11
60586.326123487786
 21
403642.6572662312
 31
0.0
  0
LINE
  5
5CD08
  8
OBRYS
  6
CONTINUOUS
 10
60599.389739527833
 20
403633.27576491132
 30
0.0
 11
60572.275859261157
 21
403633.27576491132
 31
0.0
  0
LINE
  5
5CD09
  8
OBRYS
  6
CONTINUOUS
 10
60490.368067813339
 20
404024.88197407662
 30
0.0
 11
60490.368067813339
 21
403949.88197407662
 31
0.0
  0
LINE
  5
5CD0A
  8
OBRYS
  6
CONTINUOUS
 10
60490.368067813339
 20
403949.88197407662
 30
0.0
 11
60565.368067813339
 21
403949.88197407662
 31
0.0
  0
LINE
  5
5CD0B
  8
OBRYS
  6
CONTINUOUS
 10
60500.521832020022
 20
403949.88197407662
 30
0.0
 11
60500.521832020022
 21
403959.88197407662
 31
0.0
  0
LINE
  5
5CD0C
  8
OBRYS
  6
CONTINUOUS
 10
60500.521832020022
 20
403959.88197407662
 30
0.0
 11
60557.833815378603
 21
403959.88197407662
 31
0.0
  0
LINE
  5
5CD0D
  8
OBRYS
  6
CONTINUOUS
 10
60557.833815378603
 20
403959.88197407662
 30
0.0
 11
60557.833815378603
 21
403949.88197407662
 31
0.0
  0
LINE
  5
5CD0E
  8
OBRYS
  6
CONTINUOUS
 10
60500.521832020022
 20
403981.2687135801
 30
0.0
 11
60555.762005746132
 21
403981.2687135801
 31
0.0
  0
LINE
  5
5CD0F
  8
OBRYS
  6
CONTINUOUS
 10
60555.762005746132
 20
403981.2687135801
 30
0.0
 11
60555.762005746132
 21
404043.3901263898
 31
0.0
  0
LINE
  5
5CD10
  8
OBRYS
  6
CONTINUOUS
 10
60555.762005746132
 20
404043.3901263898
 30
0.0
 11
60500.521832020022
 21
404043.3901263898
 31
0.0
  0
LINE
  5
5CD11
  8
OBRYS
  6
CONTINUOUS
 10
60500.521832020022
 20
404043.3901263898
 30
0.0
 11
60500.521832020022
 21
403981.2687135801
 31
0.0
  0
LINE
  5
5CD12
  8
OBRYS
  6
CONTINUOUS
 10
60510.188256186659
 20
404043.3901263898
 30
0.0
 11
60544.713364765506
 21
404043.3901263898
 31
0.0
  0
LINE
  5
5CD13
  8
OBRYS
  6
CONTINUOUS
 10
60544.713364765506
 20
404043.3901263898
 30
0.0
 11
60544.713364765506
 21
404077.90118647768
 31
0.0
  0
LINE
  5
5CD14
  8
OBRYS
  6
CONTINUOUS
 10
60544.713364765506
 20
404077.90118647768
 30
0.0
 11
60510.188256186659
 21
404077.90118647768
 31
0.0
  0
LINE
  5
5CD15
  8
OBRYS
  6
CONTINUOUS
 10
60510.188256186659
 20
404077.90118647768
 30
0.0
 11
60510.188256186659
 21
404043.3901263898
 31
0.0
  0
LINE
  5
5CD16
  8
OBRYS
  6
CONTINUOUS
 10
60517.761652480352
 20
403771.87296464317
 30
0.0
 11
60385.076416275457
 21
403771.87296464317
 31
0.0
  0
LINE
  5
5CD17
  8
OBRYS
  6
CONTINUOUS
 10
60385.076416275457
 20
403771.87296464317
 30
0.0
 11
60385.076416275457
 21
403761.79838328401
 31
0.0
  0
LINE
  5
5CD18
  8
OBRYS
  6
CONTINUOUS
 10
60385.076416275457
 20
403761.79838328401
 30
0.0
 11
60517.761652480352
 21
403761.79838328401
 31
0.0
  0
LINE
  5
5CD19
  8
OBRYS
  6
CONTINUOUS
 10
60517.761652480352
 20
403761.79838328401
 30
0.0
 11
60517.761652480352
 21
403771.87296464317
 31
0.0
  0
CIRCLE
  5
5CD1A
  8
OBRYS
  6
CONTINUOUS
 10
60402.91186305997
 20
403767.50289280748
 30
0.0
 40
0.7138422362040729
  0
CIRCLE
  5
5CD1B
  8
OBRYS
  6
CONTINUOUS
 10
60500.25508842431
 20
403767.50289280748
 30
0.0
 40
0.7138422362040729
  0
LINE
  5
5CD1C
  8
0
  6
CONTINUOUS
 10
60356.89955372813
 20
404024.88197407662
 30
0.0
 11
60230.368067813339
 21
404024.88197407662
 31
0.0
  0
LINE
  5
5CD1D
  8
0
  6
CONTINUOUS
 10
60356.899553728137
 20
403304.8819740765
 30
0.0
 11
60230.368067813339
 21
403304.8819740765
 31
0.0
  0
LINE
  5
5CD1E
  8
0
  6
CONTINUOUS
 10
60240.368067813331
 20
403994.88197407662
 30
0.0
 11
60240.368067813331
 21
403334.88197407662
 31
0.0
  0
INSERT
  5
5CD1F
  8
0
  6
CONTINUOUS
  2
_OPEN
 10
60240.368067813331
 20
404024.88197407662
 30
0.0
 41
30.0
 42
30.0
 43
30.0
 50
90.0
  0
INSERT
  5
5CD20
  8
0
  6
CONTINUOUS
  2
_OPEN
 10
60240.368067813331
 20
403304.8819740765
 30
0.0
 41
30.0
 42
30.0
 43
30.0
 50
270.0
  0
INSERT
  5
5CD21
  8
0
  6
CONTINUOUS
  2
*U2
 10
0.0
 20
0.0
 30
0.0
  0
LINE
  5
5CD22
  8
0
  6
CONTINUOUS
 10
60610.368067813331
 20
403481.7319740766
 30
0.0
 11
60610.368067813331
 21
403010.46229351929
 31
0.0
  0
LINE
  5
5CD23
  8
0
  6
CONTINUOUS
 10
60340.368067813339
 20
403481.7319740766
 30
0.0
 11
60340.368067813339
 21
403010.46229351929
 31
0.0
  0
LINE
  5
5CD24
  8
0
  6
CONTINUOUS
 10
60580.368067813339
 20
403020.46229351941
 30
0.0
 11
60370.368067813331
 21
403020.46229351941
 31
0.0
  0
LINE
  5
5CD25
  8
0
  6
CONTINUOUS
 10
60580.368067813339
 20
403025.46229351941
 30
0.0
 11
60610.368067813331
 21
403020.46229351941
 31
0.0
  0
LINE
  5
5CD26
  8
0
  6
CONTINUOUS
 10
60610.368067813331
 20
403020.46229351941
 30
0.0
 11
60580.368067813339
 21
403015.46229351941
 31
0.0
  0
LINE
  5
5CD27
  8
0
  6
CONTINUOUS
 10
60610.368067813331
 20
403020.46229351941
 30
0.0
 11
60580.368067813339
 21
403020.46229351941
 31
0.0
  0
LINE
  5
5CD28
  8
0
  6
CONTINUOUS
 10
60370.368067813331
 20
403015.46229351941
 30
0.0
 11
60340.368067813339
 21
403020.46229351941
 31
0.0
  0
LINE
  5
5CD29
  8
0
  6
CONTINUOUS
 10
60340.368067813339
 20
403020.46229351941
 30
0.0
 11
60370.368067813331
 21
403025.46229351941
 31
0.0
  0
LINE
  5
5CD2A
  8
0
  6
CONTINUOUS
 10
60340.368067813339
 20
403020.46229351941
 30
0.0
 11
60370.368067813331
 21
403020.46229351941
 31
0.0
  0
TEXT
  5
5CD2B
  8
0
  6
CONTINUOUS
 10
60452.510924956186
 20
403045.46229351941
 30
0.0
 40
20.0
  1
270
 41
0.8
  0
LINE
  5
5CD2C
  8
OBRYS
  6
CONTINUOUS
 10
60365.368067813339
 20
404089.89701981627
 30
0.0
 11
60365.368067813339
 21
404134.88197407662
 31
0.0
  0
LINE
  5
5CD2D
  8
OBRYS
  6
CONTINUOUS
 10
60465.368067813353
 20
404089.89701981627
 30
0.0
 11
60465.368067813353
 21
404134.88197407662
 31
0.0
  0
LINE
  5
5CD2E
  8
OBRYS
  6
CONTINUOUS
 10
60335.368067813339
 20
404124.88197407662
 30
0.0
 11
60305.368067813339
 21
404124.88197407662
 31
0.0
  0
LINE
  5
5CD2F
  8
OBRYS
  6
CONTINUOUS
 10
60495.368067813353
 20
404124.88197407662
 30
0.0
 11
60630.987115432399
 21
404124.88197407662
 31
0.0
  0
LINE
  5
5CD30
  8
OBRYS
  6
CONTINUOUS
 10
60365.368067813339
 20
404124.88197407662
 30
0.0
 11
60465.368067813353
 21
404124.88197407662
 31
0.0
  0
INSERT
  5
5CD31
  8
OBRYS
  6
CONTINUOUS
  2
_OPEN
 10
60365.368067813339
 20
404124.88197407662
 30
0.0
 41
30.0
 42
30.0
 43
30.0
  0
INSERT
  5
5CD32
  8
OBRYS
  6
CONTINUOUS
  2
_OPEN
 10
60465.368067813353
 20
404124.88197407662
 30
0.0
 41
30.0
 42
30.0
 43
30.0
 50
180.0
  0
INSERT
  5
5CD33
  8
0
  6
CONTINUOUS
  2
*U3
 10
0.0
 20
0.0
 30
0.0
  0
LINE
  5
5CD34
  8
OBRYS
  6
CONTINUOUS
 10
60910.243392027442
 20
404029.45047206781
 30
0.0
 11
60910.243392027442
 21
404134.88197407662
 31
0.0
  0
LINE
  5
5CD35
  8
OBRYS
  6
CONTINUOUS
 10
61010.243392027442
 20
404029.45047206781
 30
0.0
 11
61010.243392027442
 21
404134.88197407662
 31
0.0
  0
LINE
  5
5CD36
  8
OBRYS
  6
CONTINUOUS
 10
60880.243392027442
 20
404124.88197407662
 30
0.0
 11
60850.243392027442
 21
404124.88197407662
 31
0.0
  0
LINE
  5
5CD37
  8
OBRYS
  6
CONTINUOUS
 10
61040.243392027442
 20
404124.88197407662
 30
0.0
 11
61175.862439646487
 21
404124.88197407662
 31
0.0
  0
LINE
  5
5CD38
  8
OBRYS
  6
CONTINUOUS
 10
60910.243392027442
 20
404124.88197407662
 30
0.0
 11
61010.243392027442
 21
404124.88197407662
 31
0.0
  0
INSERT
  5
5CD39
  8
OBRYS
  6
CONTINUOUS
  2
_OPEN
 10
60910.243392027442
 20
404124.88197407662
 30
0.0
 41
30.0
 42
30.0
 43
30.0
  0
INSERT
  5
5CD3A
  8
OBRYS
  6
CONTINUOUS
  2
_OPEN
 10
61010.243392027442
 20
404124.88197407662
 30
0.0
 41
30.0
 42
30.0
 43
30.0
 50
180.0
  0
INSERT
  5
5CD3B
  8
0
  6
CONTINUOUS
  2
*U4
 10
0.0
 20
0.0
 30
0.0
  0
LINE
  5
5CD3C
  8
OBRYS
  6
CONTINUOUS
 10
60885.243392027449
 20
404056.78101829701
 30
0.0
 11
60885.243392027449
 21
404234.88197407662
 31
0.0
  0
LINE
  5
5CD3D
  8
OBRYS
  6
CONTINUOUS
 10
61035.243392027449
 20
404056.78101829701
 30
0.0
 11
61035.243392027449
 21
404234.88197407662
 31
0.0
  0
LINE
  5
5CD3E
  8
OBRYS
  6
CONTINUOUS
 10
60915.243392027449
 20
404224.88197407662
 30
0.0
 11
61005.243392027449
 21
404224.88197407662
 31
0.0
  0
INSERT
  5
5CD3F
  8
OBRYS
  6
CONTINUOUS
  2
_OPEN
 10
60885.243392027449
 20
404224.88197407662
 30
0.0
 41
30.0
 42
30.0
 43
30.0
 50
180.0
  0
INSERT
  5
5CD40
  8
OBRYS
  6
CONTINUOUS
  2
_OPEN
 10
61035.243392027449
 20
404224.88197407662
 30
0.0
 41
30.0
 42
30.0
 43
30.0
  0
INSERT
  5
5CD41
  8
0
  6
CONTINUOUS
  2
*U5
 10
0.0
 20
0.0
 30
0.0
  0
LINE
  5
5CD42
  8
OBRYS
  6
CONTINUOUS
 10
61053.669636938743
 20
404024.88197407662
 30
0.0
 11
61145.243392027449
 21
404024.88197407662
 31
0.0
  0
LINE
  5
5CD43
  8
0
  6
CONTINUOUS
 10
61053.669636938743
 20
403304.8819740765
 30
0.0
 11
61145.243392027449
 21
403304.8819740765
 31
0.0
  0
LINE
  5
5CD44
  8
0
  6
CONTINUOUS
 10
61135.243392027442
 20
403994.88197407662
 30
0.0
 11
61135.243392027442
 21
403334.88197407662
 31
0.0
  0
INSERT
  5
5CD45
  8
OBRYS
  6
CONTINUOUS
  2
_OPEN
 10
61135.243392027442
 20
404024.88197407662
 30
0.0
 41
30.0
 42
30.0
 43
30.0
 50
90.0
  0
INSERT
  5
5CD46
  8
0
  6
CONTINUOUS
  2
_OPEN
 10
61135.243392027442
 20
403304.8819740765
 30
0.0
 41
30.0
 42
30.0
 43
30.0
 50
270.0
  0
INSERT
  5
5CD47
  8
0
  6
CONTINUOUS
  2
*U6
 10
0.0
 20
0.0
 30
0.0
  0
LINE
  5
5CD48
  8
0
  6
CONTINUOUS
 10
60365.368067813339
 20
403259.32596551179
 30
0.0
 11
60365.368067813339
 21
403194.88197407662
 31
0.0
  0
LINE
  5
5CD49
  8
0
  6
CONTINUOUS
 10
60465.368067813331
 20
403259.32596551179
 30
0.0
 11
60465.368067813331
 21
403194.88197407662
 31
0.0
  0
LINE
  5
5CD4A
  8
0
  6
CONTINUOUS
 10
60335.368067813331
 20
403204.88197407662
 30
0.0
 11
60305.368067813331
 21
403204.88197407662
 31
0.0
  0
LINE
  5
5CD4B
  8
0
  6
CONTINUOUS
 10
60495.368067813331
 20
403204.88197407662
 30
0.0
 11
60630.987115432377
 21
403204.88197407662
 31
0.0
  0
LINE
  5
5CD4C
  8
0
  6
CONTINUOUS
 10
60365.368067813339
 20
403204.88197407662
 30
0.0
 11
60465.368067813331
 21
403204.88197407662
 31
0.0
  0
INSERT
  5
5CD4D
  8
0
  6
CONTINUOUS
  2
_OPEN
 10
60365.368067813339
 20
403204.88197407662
 30
0.0
 41
30.0
 42
30.0
 43
30.0
  0
INSERT
  5
5CD4E
  8
0
  6
CONTINUOUS
  2
_OPEN
 10
60465.368067813331
 20
403204.88197407662
 30
0.0
 41
30.0
 42
30.0
 43
30.0
 50
180.0
  0
INSERT
  5
5CD4F
  8
0
  6
CONTINUOUS
  2
*U7
 10
0.0
 20
0.0
 30
0.0
  0
LINE
  5
5CD50
  8
OBRYS
  6
CONTINUOUS
 10
60340.368067813339
 20
404056.78101829701
 30
0.0
 11
60340.368067813339
 21
404234.88197407662
 31
0.0
  0
LINE
  5
5CD51
  8
OBRYS
  6
CONTINUOUS
 10
60490.368067813339
 20
404056.78101829701
 30
0.0
 11
60490.368067813339
 21
404234.88197407662
 31
0.0
  0
LINE
  5
5CD52
  8
OBRYS
  6
CONTINUOUS
 10
60370.368067813331
 20
404224.88197407662
 30
0.0
 11
60460.368067813339
 21
404224.88197407662
 31
0.0
  0
INSERT
  5
5CD53
  8
OBRYS
  6
CONTINUOUS
  2
_OPEN
 10
60340.368067813339
 20
404224.88197407662
 30
0.0
 41
30.0
 42
30.0
 43
30.0
 50
180.0
  0
INSERT
  5
5CD54
  8
OBRYS
  6
CONTINUOUS
  2
_OPEN
 10
60490.368067813339
 20
404224.88197407662
 30
0.0
 41
30.0
 42
30.0
 43
30.0
  0
INSERT
  5
5CD55
  8
0
  6
CONTINUOUS
  2
*U8
 10
0.0
 20
0.0
 30
0.0
  0
LINE
  5
5CD56
  8
0
  6
CONTINUOUS
 10
60885.243392027449
 20
403283.28616341721
 30
0.0
 11
60885.243392027449
 21
403094.88197407668
 31
0.0
  0
LINE
  5
5CD57
  8
0
  6
CONTINUOUS
 10
61035.243392027449
 20
403283.28616341721
 30
0.0
 11
61035.243392027449
 21
403094.88197407668
 31
0.0
  0
LINE
  5
5CD58
  8
0
  6
CONTINUOUS
 10
60915.243392027449
 20
403104.88197407668
 30
0.0
 11
61005.243392027449
 21
403104.88197407668
 31
0.0
  0
INSERT
  5
5CD59
  8
0
  6
CONTINUOUS
  2
_OPEN
 10
60885.243392027449
 20
403104.88197407668
 30
0.0
 41
30.0
 42
30.0
 43
30.0
 50
180.0
  0
INSERT
  5
5CD5A
  8
0
  6
CONTINUOUS
  2
_OPEN
 10
61035.243392027449
 20
403104.88197407668
 30
0.0
 41
30.0
 42
30.0
 43
30.0
  0
INSERT
  5
5CD5B
  8
0
  6
CONTINUOUS
  2
*U9
 10
0.0
 20
0.0
 30
0.0
  0
LINE
  5
5CD5C
  8
0
  6
CONTINUOUS
 10
60910.243392027442
 20
403260.85224624979
 30
0.0
 11
60910.243392027442
 21
403194.88197407662
 31
0.0
  0
LINE
  5
5CD5D
  8
0
  6
CONTINUOUS
 10
61010.243392027442
 20
403260.85224624979
 30
0.0
 11
61010.243392027442
 21
403194.88197407662
 31
0.0
  0
LINE
  5
5CD5E
  8
0
  6
CONTINUOUS
 10
60880.243392027442
 20
403204.88197407662
 30
0.0
 11
60850.243392027442
 21
403204.88197407662
 31
0.0
  0
LINE
  5
5CD5F
  8
0
  6
CONTINUOUS
 10
61040.243392027442
 20
403204.88197407662
 30
0.0
 11
61175.862439646487
 21
403204.88197407662
 31
0.0
  0
LINE
  5
5CD60
  8
0
  6
CONTINUOUS
 10
60910.243392027442
 20
403204.88197407662
 30
0.0
 11
61010.243392027442
 21
403204.88197407662
 31
0.0
  0
INSERT
  5
5CD61
  8
0
  6
CONTINUOUS
  2
_OPEN
 10
60910.243392027442
 20
403204.88197407662
 30
0.0
 41
30.0
 42
30.0
 43
30.0
  0
INSERT
  5
5CD62
  8
0
  6
CONTINUOUS
  2
_OPEN
 10
61010.243392027442
 20
403204.88197407662
 30
0.0
 41
30.0
 42
30.0
 43
30.0
 50
180.0
  0
INSERT
  5
5CD63
  8
0
  6
CONTINUOUS
  2
*U10
 10
0.0
 20
0.0
 30
0.0
  0
LINE
  5
5CD64
  8
0
  6
CONTINUOUS
 10
60365.368067813339
 20
403104.88197407668
 30
0.0
 11
60465.368067813331
 21
403104.88197407668
 31
0.0
  0
LINE
  5
5CD65
  8
0
  6
CONTINUOUS
 10
60340.368067813339
 20
403483.9333050187
 30
0.0
 11
60340.368067813339
 21
403094.88197407668
 31
0.0
  0
LINE
  5
5CD66
  8
0
  6
CONTINUOUS
 10
60490.368067813339
 20
403483.9333050187
 30
0.0
 11
60490.368067813339
 21
403094.88197407668
 31
0.0
  0
LINE
  5
5CD67
  8
0
  6
CONTINUOUS
 10
60370.368067813331
 20
403104.88197407668
 30
0.0
 11
60460.368067813339
 21
403104.88197407668
 31
0.0
  0
INSERT
  5
5CD68
  8
0
  6
CONTINUOUS
  2
_OPEN
 10
60340.368067813339
 20
403104.88197407668
 30
0.0
 41
30.0
 42
30.0
 43
30.0
 50
180.0
  0
INSERT
  5
5CD69
  8
0
  6
CONTINUOUS
  2
_OPEN
 10
60490.368067813339
 20
403104.88197407668
 30
0.0
 41
30.0
 42
30.0
 43
30.0
  0
INSERT
  5
5CD6A
  8
0
  6
CONTINUOUS
  2
*U11
 10
0.0
 20
0.0
 30
0.0
  0
LINE
  5
5CD6B
  8
OBRYS
  6
CONTINUOUS
 10
59683.076253156643
 20
405016.8823106038
 30
0.0
 11
59683.076253156643
 21
402046.8823106038
 31
0.0
  0
LINE
  5
5CD6C
  8
OBRYS
  6
CONTINUOUS
 10
59683.076253156643
 20
402046.8823106038
 30
0.0
 11
61783.076253156643
 21
402046.8823106038
 31
0.0
  0
LINE
  5
5CD6D
  8
OBRYS
  6
CONTINUOUS
 10
61783.076253156643
 20
402046.8823106038
 30
0.0
 11
61783.076253156643
 21
405016.8823106038
 31
0.0
  0
LINE
  5
5CD6E
  8
OBRYS
  6
CONTINUOUS
 10
61783.076253156643
 20
405016.8823106038
 30
0.0
 11
59683.076253156643
 21
405016.8823106038
 31
0.0
  0
INSERT
  5
5CDCA
  8
0
  6
CONTINUOUS
  2
*U12
 10
0.0
 20
0.0
 30
0.0
  0
VIEWPORT
  5
1FAB5
 67
     1
  8
0
  6
ČERCHOVANÁ
 10
12.669026204836801
 20
9.4585013259736659
 30
0.0
 40
41.707206501782828
 41
24.2248555085413
 68
     1
 69
     1
1001
ACAD
1000
MVIEW
1002
{
1070
    16
1010
0.0
1020
0.0
1030
0.0
1010
0.0
1020
0.0
1030
1.0
1040
0.0
1040
24.2248555085413
1040
12.669026204836801
1040
9.4585013259736659
1040
50.0
1040
0.0
1040
0.0
1070
     0
1070
   100
1070
     1
1070
     1
1070
     0
1070
     0
1070
     0
1070
     0
1040
0.0
1040
0.0
1040
0.0
1040
10.0
1040
10.0
1040
10.0
1040
10.0
1070
     0
1002
{
1002
}
1002
}
  0
VIEWPORT
  5
1FAB7
 67
     1
  8
2-VZT
  6
ČERCHOVANÁ
 10
5.24999976158142
 20
3.99999976158142
 30
0.0
 40
8.3999996185302717
 41
6.3999996185302717
 68
     2
 69
     2
1001
ACAD
1000
MVIEW
1002
{
1070
    16
1010
0.0
1020
0.0
1030
0.0
1010
0.0
1020
0.0
1030
1.0
1040
0.0
1040
517776.44812413253
1040
-335493.7046016907
1040
-205251.99203018961
1040
50.0
1040
0.0
1040
0.0
1070
     0
1070
   100
1070
     1
1070
     0
1070
     0
1070
     0
1070
     0
1070
     0
1040
0.0
1040
0.0
1040
0.0
1040
1.0
1040
1.0
1040
1.0
1040
1.0
1070
     0
1002
{
1002
}
1002
}
  0
ENDSEC
  0
EOF
